Login:  Pass:   
Sign Up Forgot Pass To Confirm
  A B C D E F G H I J K L M N O P Q R S T U V W X Y Z 0-9  
Search: 
Submit Musics Requested Songs Guitar Licks Scales
STOP
 

Unwind The Chainsaw Tab

Avenged Sevenfold

  
Home > A > Avenged Sevenfold > Unwind The Chainsaw
Rate This Music:
0
Corrections:
Added by Catia Medeiros


e-------------------10------12------13---------9-----10-----12------|
b-----------------10--10--10--10--10--10-----10-10-10--10-10--10----|
g---------------10------10------10------10--9-----9------9------10--| x2
d------------/12--------------------------11------------------------|
a-------------------------------------------------------------------|
d-------------------------------------------------------------------|

e-------------10------12------13-/17------13-----|
b-----------11--11--11--11--11------13--13--13---|
g---------10------10------10----------14------14-|
d-------12---------------------------------------|
a------------------------------------------------|
d------------------------------------------------|

e---------15--17--18-------18------17------15---------|
b-------15--15--15--15---15--15--15--15--15--15---15--|
g-----14---------------15------15------15-------15----|
d---16------------------------------------------------|
a-----------------------------------------------------|
d-----------------------------------------------------|

e---17------17------15------13-----|
b-----13--13--13--13--13--13--13---|
g-------14------14------14------14-|
d----------------------------------|
a----------------------------------|
d----------------------------------|

e--12-----13-----13----12----10----9----10--9-|
b----9--9---9---9--9--9--9--9--9--9--9-9--9---|
g-----9-------9-----9-----9------9----9----9--|
d---------------------------------------------|
a---------------------------------------------|
d---------------------------------------------|

e---------------------------|
b---------------------------|
g--77777777/-9999/-10101010-|
d--xxxxxxxx/-xxxx/-x-x-x-x--|
a--55555555/-7777/-8-8-8-8--|
d---------------------------|

e--------------------|
b--------------------|
g--66666666/7777/9999
d--xxxxxxxx/xxxx/xxxx
a--44444444/5555/7777
d--------------------
Learn how to play "Unwind The Chainsaw" with online video lessons


All Contents from Mega Chords.Com

Privacy Policy