Login:  Pass:   
Sign Up Forgot Pass To Confirm
  A B C D E F G H I J K L M N O P Q R S T U V W X Y Z 0-9  
Search: 
Submit Musics Requested Songs Guitar Licks Scales
 

Everybody Wants You Chords

Billy Squier

  
Home > B > Billy Squier > Everybody Wants You
Rate This Music:
0
Corrections:
Added by Catia Medeiros

Learn how to play "Everybody Wants You" with online video lessons!
STOP
MAIN RIFF 

 |  --------------------------------------------  | 
 |  -----5-5-------5-5-------5-----------5-5----  | 
 |  --0--2-2----0--2-2----0--2--5--2--0--2-2----  | 
 |  --------------------------------------------  | 
 |  --------------------------------------------  | 
 |  --------------------------------------------  | 


MAIN RIFF 2

 |  -------------------------------------------  | 
 |  ----------------------------5--------------  | 
 |  ----------------------------5--------------  | 
 |  --5--7-7----5--7-7----5--7-----7--5--7-7---  | 
 |  --5--7-7----5--7-7----5--7-----7--5--7-7---  | 
 |  -------------------------------------------  | 


G - D
You see 'em comin' at you every night
Strung on pretension- they fall for you at first sight
You know their business, you think it's a bore
They make you restless, it's nothin' you ain't seen before

E                                             
Get around town, spend your time on the run
    G                       A
You never let down, say you do it for fun

E
Never miss a play, though you make quite a few
    G            D
You give it all away - Everybody wants you

You crave attention, you can never say "no"
Throw your affections any way the wind blows
You always make it, you're on top of the scene
You sell the copy like the cover of a magazine

Puttin' on the eyes 'til there's nobody else
You never realize what you do to yourself
The things that they see make the daily reviews
You never get free - everybody wants you

BRIDGE RIFF
 |  -----0------5---  | 
 |  -3------3-------  | 
 |  -2--------------  | 
 |  -0--------------  | 
 |  -x--------------  | 
 |  -x--------------  | 

Everybody knows you- Everybody snows you 
          D                                  E  D  
Everybody needs you, leads you, bleeds you

BRIDGE END FILL (Play a couple times with lots of vibrato and end on a low G bend)
 |  ---12---------  | 
 |  ---15b17------  | 
 |  --------------  | 
 |  --------------  | 
 |  --------------  | 
 |  --------------  | 


Nights of confusion and impossible dreams
Days at the mirror, patchin' up around the seams
You got your glory, you paid for it all
You take your pension in loneliness and alcohol

Say goodbye to conventional ways
You can't escape the hours, you lose track of the days
The more you understand, seems the more like you do
You never get away ? Everybody wants you

***

Throw these in as needed:

LICK 1
 |  ---------------------------------  | 
 |  ----5/8--5-----5-----------------  | 
 |  ------------7------5/7---5-------  | 
 |  ---------------------------------  | 
 |  ---------------------------------  | 
 |  ---------------------------------  | 


LICK 2
 |  ---------------------------------  | 
 |  ----5/8--5-----5-----------------  | 
 |  ------------7------5b7------5----  | 
 |  -------------------------7-------  | 
 |  ---------------------------------  | 
 |  ---------------------------------  |  
Learn how to play "Everybody Wants You" with online video lessons



All Contents from Mega Chords.Com


Privacy Policy