Login:  Pass:   
Sign Up Forgot Pass To Confirm
  A B C D E F G H I J K L M N O P Q R S T U V W X Y Z 0-9  
Search: 
Submit Musics Requested Songs Guitar Licks Guitar Tutorials Scales
 

Dammit Acoustic Chords

Blink 182

  
Home > B > Blink 182 > Dammit Acoustic
Rate This Music:
0
Corrections:
Added by Catia Medeiros

Learn how to play "Dammit Acoustic" with online video lessons!
STOP
Chords:

 lowEADGBe
C/G:332010
  G:320033
 Am:X02210
  F:133211

Intro:

e------------------------------------------------------- | 
B------------------------------------------------------- | 
G------------------------------------------------------- | 
D-----0-0-2-------0-0-2-------0-0-2-------2-2-0--------- | 
A-3-3---------------------0-0--------------------------- | 
E-------------3-3---------------------1-1--------------- |   Play twice

C5 G5 A5 F5 
(Play Twice) (Play the rhythm like the first part of the intro.)

Verse 1:
C5
  It's alright
G5
  to tell me
A5
  what you think
F5
  about me
C5
  I won't try
G5
  to argue
A5
  or hold it
F5
  against you
C5
  I know that
G5
  you're leaving
A5
  you must have
F5
  your reasons
C5 G5
  The season
G5
  is calling
A5
  and your pictures
F5
  are falling down

Interlude:
C5 G5 A5 F5 
(2xs) (Play the rhythm like the intro)

Verse 2:
C5
  The steps that
G5
  I retrace
A5
  the sad look
F5
  on your face
C5
  The timing
G5
  and structure
A5
  did you hear
F5
  he fucked her?
C5
  A day late
G5
  a buck short
A5
  I'm writing
F5
  the report
C5
  On losing
G5
  and failing
A5
  when I move
F5
  I'm flailing now

Chorus:
C5
  And it'll happen once again
G5
  I'll turn to a friend
A5
  Someone that understands,
F5
  Sees through the master plan
C5
  But everybody's gone
G5
  And I've been here for too long
A5
  To face this on my own
F5
  Well I guess this is growing up

(Play the next part of the chorus like the verses.)


C5 G5 A5             F5
        Well I guess this is growing up

Interlude:
C5 G5 A5 F5 (Play once)
Verse 3:
C5
  And maybe
G5
  I'll see you
A5
  at a movie
F5
  sneak preview
C5
  You'll show up
G5
  and walk by
A5
  on the arm
F5
  of that guy
C5
  And I'll smile
G5
  and you'll wave
A5
  we'll pretend
F5
  it's okay
C5
  The charade
G5
  it won't last
A5
  when he's gone
F5
  I won't come back

Chorus:
C5
  And it'll happen once again
G5
  I'll turn to a friend
A5
  Someone that understands,
F5
  Sees through the master plan
C5
  But everybody's gone
G5
  And I've been here for too long
A5
  To face this on my own

(I play the F chord till I get to "this" and stop playing. I think it makes

 a good transition to get to the bridge easier.)
F5
  Well I guess this is growing up

Bridge:

e------------------------------------------------- | 
B------------------------------------------------- | 
G------------------------------------------------- | 
D--2------0--2------2---------0-2---0-2----2------ | 
A----3---------3------3-----------3-----3----3---- | 
E------3----------------3----------------------3-- | 

e------------------------------------ | 
B------------------------------------ | 
G------------------------------------ | 
D--2------0--2------2---------0-2---- | 
A----3---------3------3-----------3-- | 
E------3----------------3------------ | 

then stike the C/G chord once and just sing the first part of the Outro
with no playing.

Outro:

N.C.
Well, I guess this is growing up

(Play the rest of the outro like the verses.)

C5 G5 A5              F5
        Well, I guess this is growing up (Play 4xs)

End on 
C5 
and let it ring out

And that should be that for Dammit by Blink 182. So once again, when you
have made your final judgement on the tab, please rate and/or leave a
comment. And, be sure to stop by my profile and check out my other tabs.
And while you're there, feel free to join my "UGs Online Music Debate"
group. There's always new debates and topics about everyday.

-I hope you enjoy; my little droogies. 
Learn how to play "Dammit Acoustic" with online video lessons



All Contents © from Mega Chords.Com


Privacy Policy