Login:  Pass:   
Sign Up Forgot Pass To Confirm
  A B C D E F G H I J K L M N O P Q R S T U V W X Y Z 0-9  
Search: 
Submit Musics Requested Songs Guitar Licks Scales
STOP
 

Karn Evil 9 Tab

Emerson Lake And Palmer

  
Home > E > Emerson Lake And Palmer > Karn Evil 9
Rate This Music:
0
Corrections:
Added by Fabio


Guitar Transcription By: PAUL STAUTS 

Tune 6th String Down to D

~ =vibrato

h =hammer on

p =pull off

17^(18) =bend string at 17th fret so it sounds like note at 18th fret

\ =slide down

8 (8) =hold note

===========================================================================

     Cold and misty morning, I heard a warning borne in the air
     About an age of power where no one had an hour to spare,
     Where the seeds have withered, silent children shivered, in the cold
     Now their faces captured in the lenses of the jackals for gold.
     I'll be there
     I'll be there
     I will be there.

     Suffering in silence, they've all been betrayed.
     They hurt them and they beat them, in a terrible way,
     Praying for survival at the end of the day.
     There is no compassion for those who stay.
     I'll be there
     I'll be there
     I will be there.

     There must be someone who can set them free:
     To take their sorrow from this odyssey
     To help the helpless and the refugee
     To protect what's left of humanity.
     Can't you see
     Can't you see
     Can't you see.

     I'll be there
     I'll be there
     I will be there;
     To heal their sorrow
     To beg and borrow
     Fight tommorow.

     Step inside! Hello! We've the most amazing show
     You'll enjoy it all we know
     Step inside! Step Inside!

     We've got thrills and shocks, supersonic fighting cocks.
     Leave your hammers at the box
     Come Inside! Come Inside!
     Roll up! Roll up! Roll up!
     See the show!

     Left behind the bars, rows of Bishops' heads in jars
     and a bomb inside a car
     Spectacular! Spectacular!

     If you follow me there's a speciality
     some tears for you to see
     Misery, misery,
     Roll up! Roll up! Roll up!
     See the show!

     Next upon the bill in our House of Vaudeville
     We've a stripper in a till
     What a thrill! What a thrill!
     And not content with that, with our hands behind our backs,
     We pull Jesus from a hat,
     Get into that! Get into that!
     Roll up! Roll up! Roll up!
     See the show!


(guitar solo)
|---------------------------------------|
|---------------------------------------|
|---------------------------------------|
|------------------------------------9~-|
|-(b9)10-11--(b9)10-11--(b9)10-11--(b9)10-11----|
|---------------------------------------|


|-----------------------------------------|
|-----------------------------------------|
|-----------------------------------------|
|-----------------------------------------|
|-(b9)10-11--(b9)10-11--(b9)10-11--(b9)10-11------|
|------------------------------------11~--|


|-----------------------------------------------|
|-----------------------------------------------|
|-----------------------------------------------|
|---------------------------9~------------------|
|-(b9)10-11--(b9)10-11--(b9)10-11-----11--(b9)-11--9~---|
|-----------------------------------------------|


|---------------------------------------------|
|----------------------------------------12~--|
|-11-12-13--11-12-13--11-12-13--11-12-13------|
|---------------------------------------------|
|---------------------------------------------|
|---------------------------------------------|


|--------------------------------------------|
|--------------------------------------------|
|-11-12-13--11-12-13--11-12-13--11-12-13-----|
|----------------------------------------11~-|
|--------------------------------------------|
|--------------------------------------------|


|---------------------------------------------------|
|------------------------------12~------------------|
|-11-12-13--11-12-13--11-12-13------13-11-13-11-13~-|
|---------------------------------------------------|
|---------------------------------------------------|
|---------------------------------------------------|


|--------------------------------------------------------|
|-------------------16-15-13---------16-15-16-15-16^(18)-|
|-13-14-15-------15----------15-13~----------------------|
|-------------13-----------------------------------------|
|----------13--------------------------------------------|
|--------------------------------------------------------|


|-16-15-16^(18)--16^(18)--15---------|-----------------------------|
|----------------------------18-16~--|-15-16-18-16-15-16-15--------|
|------------------------------------|----------------------13-15~-|
|------------------------------------|-----------------------------|
|------------------------------------|-----------------------------|
|------------------------------------|-----------------------------|

                          
|------------------13-14--13------------------------|
|-----16-14-16--16-----------16-----------14-16-14--|
|.-15---------------------------15--13-15----------.|
|.-------------------------------------------------.|
|---------------------------------------------------|
|---------------------------------------------------|


|------------------------------------11-12--11-12-------------|
|-14-17-14----------14-14-12-14~--14-------------12-14-12-----|
|----------16-13-13---------------------------------------13~-|
|-------------------------------------------------------------|
|-------------------------------------------------------------|
|-------------------------------------------------------------|


|-----------------------------|
|-----------------------------|
|-13-11-----------------------|
|-------14--11h13p11----------|
|---------------------14p11---|
|-----------------------------|


|------------------------------------------------------------------------|
|-12-11---------------------------11--12h14h16--12-----------------------|
|--------11h13p11-----11-13~---13------------------13-11-----------------|
|------------------13------------------------------------13-13-11-13~----|
|------------------------------------------------------------------------|
|------------------------------------------------------------------------|


|--------------------|-------------------------------------|
|-13-13-13--16-16----|--16-14-13----13---------------------|
|-----------------13-|.----------15----15-13--------------.|
|--------------------|.----------------------13-13-15-13--.|
|--------------------|-------------------------------------|
|--------------------|-------------------------------------|


|-----------------------------|
|-------------------14-16-17--|
|----------13-14-16-----------|
|-13-14-16--------------------|
|-----------------------------|
|-----------------------------|


|-----------------------------|-----------------------------|
|-----------------------------|-----------------------------|
|-18-16-14--------------------|-15-13-11--------------------|
|----------18-16-14-----------|----------15-13-11-----------|
|-------------------18-16-14~-|-------------------15-13-11~-|
|-----------------------------|-----------------------------|


|-----------------------------------------------------|
|-17-15-14--------------------------------------------|
|----------18-16-14-----------------------------------|
|-------------------18-16-14~-----16^(18)-(16)-(18)~--|
|-----------------------------------------------------|
|-----------------------------------------------------|


|-----------------------------|
|-----------------------------|
|-20-18-16--------------------|
|----------20-18-16-----------|
|-------------------20-18-16~-|
|-----------------------------|


|----------------------------------|
|-------------14-13-14-16-17-1(b9)17-|
|-------13-13----------------------|
|-15-15----------------------------|
|----------------------------------|
|----------------------------------|


|-------------------------------------|------------------------------|
|-19^(21)--19^(21)--19^(21)--19^(21)~-|-1(b9)---------17-1(b9)19^(21)----|
|-------------------------------------|----18-16-18------------------|
|-------------------------------------|------------------------------|
|-------------------------------------|------------------------------|
|-------------------------------------|------------------------------|

(FAST)
|------------------------------------------------------------|
|--14-13-11-13--14-13-11-13--14-13-11-13--14-13-11-13--11----|
|.----------------------------------------------------------.|
|.----------------------------------------------------------.|
|------------------------------------------------------------|
|------------------------------------------------------------|

                                                         (x4)
|------------------------------------------------------------|-16\-----|
|--17-16-14-16--17-16-14-16--17-16-14-16--17-16-14-16--14----|-16\-----|
|.----------------------------------------------------------.|---------|
|.----------------------------------------------------------.|---------|
|------------------------------------------------------------|---------|
|------------------------------------------------------------|---------|


     Welcome back my friends to the show that never ends
     We're so glad you could attend
     Come inside! Come inside!
     There behind a glass is a real blade of grass
     be careful as you pass.
     Move along! Move along!

     Come inside, the show's about to start
     guaranteed to blow your head apart


  Rest assured you'll get your money's worth.
|---------------------------------------------|
|---------------------------------------------|
|---------------------------------------------|
|-8------------------(8)----------------------|
|-8------------------(8)----------------------|
|-8------------------(8)----------------------|


  The greatest show in Heaven, Hell or Earth.
|---------------------------------------------|
|---------------------------------------------|
|---------------------------------------------|
|-8------------------(8)----------------------|
|-8------------------(8)----------------------|
|-8------------------(8)----------------------|


  You've got to see the show,         it's a dynamo
|------------------------------------------------------------|
|------------------------------------------------------------|
|------------------------------------------------------------|
|-----------------------13-------(13)------------(b9)------(9)-|
|-----------------------13-------(13)------------(b9)------(9)-|
|-----------------------13-------(13)------------(b9)------(9)-|


  You've got to see the show,         it's rock and roll...
|---------------------------------------------------------------|
|---------------------------------------------------------------|
|---------------------------------------------------------------|
|-----------------------13-------(13)---------------(b9)------(9)-|
|-----------------------13-------(13)---------------(b9)------(9)-|
|-----------------------13-------(13)---------------(b9)------(9)-|


  Right before your eyes, we pull laughter from the skies
|---------------------------------------------------------|
|---------------------------------------------------------|
|---------------------------------------------------------|
|-6-------------------------------(6)---------------------|
|-6-------------------------------(6)---------------------|
|-6-------------------------------(6)---------------------|


  And he laughs until he cries, then he dies, then he dies
|----------------------------------------------------------|
|----------------------------------------------------------|
|-6^(8)~--------------------------------(8)----------------|
|----------------------------------------------------------|
|----------------------------------------------------------|
|----------------------------------------------------------|

     
  Come inside the show's about to start, guaranteed to blow your head apart
|-------------------------------------------------------------------------|
|-------------------------------------------------------------------------|
|-------------------------------------------------------------------------|
|-8------------------(8)------------------8---------------(8)-------------|
|-8------------------(8)------------------8---------------(8)-------------|
|-8------------------(8)------------------8---------------(8)-------------|
    
    
  You've got to see the show,           it's a dynamo
|-------------------------------------|-------------------------|
|-------------------------------------|-------------------------|
|-------------------------------------|-------------------------|
|----------------------------8--4--1--|---------------(b9)-4--(b9)--|
|----------------------------8--4--1--|---------------(b9)-4--(b9)--|
|----------------------------8--4--1--|---------------(b9)-4--(b9)--|


  You've got to see the show,           it's rock and roll...
|-------------------------------------|-----------------------------|
|-------------------------------------|-----------------------------|
|-------------------------------------|-----------------------------|
|---------------------------13--8--13-|---------------------(b9)-4--(b9)|
|---------------------------13--8--13-|---------------------(b9)-4--(b9)|
|---------------------------13--8--13-|---------------------(b9)-4--(b9)|


(RIFF C)                      (1) (4)       (2)         (3)
|----------------------------|-------------|-----------|---------------|
|------4------6----8------4--|-(b9)7---------|-----------|---------------|
|.-----4------6----8------4--|-----8-6-4--.|----------.|--------------.|
|.-6-6----6-6----6----6-6----|------------.|----------.|-6-6-6--6-4-5-.|
|----------------------------|-------------|-----------|---------------|
|----------------------------|-------------|-6-4--6-4--|---------------|


(AFTER 4, PLAY SOMETHING SIMILAR A FEW TIMES)
|------------------------|
|------4-----------------|
|.-----4----------------.|
|.-6-6----6-6-6--6-4-5--.|
|------------------------|
|------------------------|


(GUITAR SOLO)
|------------------------------------11-12--11-12-------------|
|-14-17-14----------14-14-12-14~--14-------------12-14-12-----|
|----------16-13-13---------------------------------------13~-|
|-------------------------------------------------------------|
|-------------------------------------------------------------|
|-------------------------------------------------------------|


|-----------------------------|
|-----------------------------|
|-13-11-----------------------|
|-------14--11h13p11----------|
|---------------------14p11---|
|-----------------------------|


|------------------------------------------------------------------------|
|-12-11---------------------------11--12h14h16--12-----------------------|
|--------11h13p11-----11-13~---13------------------13-11-----------------|
|------------------13------------------------------------13-13-11-13~----|
|------------------------------------------------------------------------|
|------------------------------------------------------------------------|


|--------------------|-------------------------------------|
|-13-13-13--16-16----|--16-14-13----13---------------------|
|-----------------13-|.----------15----15-13--------------.|
|--------------------|.----------------------13-13-15-13--.|
|--------------------|-------------------------------------|
|--------------------|-------------------------------------|


|-----------------------------|
|-------------------14-16-17--|
|----------13-14-16-----------|
|-13-14-16--------------------|
|-----------------------------|
|-----------------------------|


|-----------------------------|-----------------------------|
|-----------------------------|-----------------------------|
|-18-16-14--------------------|-15-13-11--------------------|
|----------18-16-14-----------|----------15-13-11-----------|
|-------------------18-16-14~-|-------------------15-13-11~-|
|-----------------------------|-----------------------------|


|----------------------------------------------------|
|-17-15-14-------------------------------------------|
|----------18-16-14----------------------------------|
|-------------------18-16-14~----16^(18)-(16)-(18)~--|
|----------------------------------------------------|
|----------------------------------------------------|


|-----------------------------|
|-----------------------------|
|-20-18-16--------------------|
|----------20-18-16-----------|
|-------------------20 18 16~-|
|-----------------------------|


|----------------------------------|
|-------------14-13-14-16-17-1(b9)17-|
|-------13-13----------------------|
|-15-15----------------------------|
|----------------------------------|
|----------------------------------|


|-------------------------------------|
|-19^(21)--19^(21)--19^(21)--19^(21)~-|
|-------------------------------------|
|-------------------------------------|
|-------------------------------------|
|-------------------------------------|


|-----------------------------------------|
|-17-1(b9)17-16-17-16-----------------------|
|-------------------18-18^(20)--18^(20)\--|
|-----------------------------------------|
|-----------------------------------------|
|-----------------------------------------|


(FAST)
|-------------------------------------------------------------|
|--14-13-11-13--14-13-11-13--14-13-11-13--14-13-11-13---11----|
|.-----------------------------------------------------------.|
|.-----------------------------------------------------------.|
|-------------------------------------------------------------|
|-------------------------------------------------------------|

                                                         (x4)
|-------------------------------------------------------------|-16\-----|
|--17-16-14-16--17-16-14-16--17-16-14-16--17-16-14-16---14----|-16\-----|
|.-----------------------------------------------------------.|---------|
|.-----------------------------------------------------------.|---------|
|-------------------------------------------------------------|---------|
|-------------------------------------------------------------|---------|


(DRUM SOLO) 

     Soon the Gypsy Queen in a glaze of Vaseline
     Will perform on guillotine
     What a scene! What a scene!
     Next upon the stand will you please extend a hand
     to Alexander's Ragtime Band
     Roll up! Roll up! Roll up!
     See the show!

     Performing on a stool we've a sight to make you drool
     Seven virgins and a mule
     Keep it cool. Keep it cool.
     We would like it to be known the exhibits that were shown
     were exclusively our own,
     All our own. All our own.
     Come and see the show! Come and see the show! Come and see the show!
     See the show!
Learn how to play "Karn Evil 9" with online video lessons


All Contents from Mega Chords.Com

Privacy Policy