Login:  Pass:   
Sign Up Forgot Pass To Confirm
  A B C D E F G H I J K L M N O P Q R S T U V W X Y Z 0-9  
Search: 
Submit Musics Requested Songs Guitar Licks Scales
STOP
 

007 Theme Tab

James Bond

  
Home > J > James Bond > 007 Theme
Rate This Music:
0
Corrections:
Added by Fabio


-JAMES BOND 007 THEME- 
 
PART 1 
INTRO 
e|------------------| 
B|------------------| 
G|------------------| 
D|------------------| 
A|-2-3-4-3-2-3-4-3--| 
E|--0-0-0-0-0-0-0-0-| 
 
PART 2 
e|------------------------------| 
B|------------------------------| 
G|------------------------------|REPEAT 2X 
D|------------------------------| 
A|------------------------------| 
E|0-222-2-0-0-0-0-333-3-2-2-2---| 
 
PART 3 
3RD TIME 
e|---------------------------------------| 
B|---------------------------------------| 
G|---------------------------------------| 
D|-----------------------------2-0-------| 
A|---------------------------------2-0-2-| 
E|-0-222-2-0-0-0-0-333-3-2-1-0-----------| 
 
REPEAT PARTS 2 AND 3 AND THEN DO:  
 
PART 4 
e|-----0----------------------------------| 
B|------3----0----------------------------| 
G|--0------03---0-------------------------| 
D|-2---------------4---2------------------| 
A|--------------------2-3-----------------| 
E|----------------------------------------| 
 
PART 5 
e|-----0----------------------------------| 
B|------3----0----------------------------| 
G|--0------03---0-------------------------| 
D|-2---------------4---1-2----------------| 
A|--------------------2-------------------| 
E|----------------------------------------| 
 
PART 6 
e|----------------------------------------| 
B|----------------------------------------| 
G|-------------0-0-0----------------------| 
D|-2-2-2-4-2-4-------4-2-4----------------| 
A|----------------------------------------| 
E|----------------------------------------| 
 
e|----------------------------------------| 
B|-0-0----0-0----0-0-0-0-0----------------| 
G|----------------------------------------| 
D|----------------------------------------| 
A|-----2------2---------------------------| 
E|----------------------------------------| 
 
 
REPEAT PARTS 1 AND 2 AND THEN DO: 
 
e|---------------------4-3-0-4-8-7------| 
B|-------------4-3-0-4------------------| 
G|-----4-3-0-4--------------------------| 
D|-0-4----------------------------------| 
A|--------------------------------------| 
E|--------------------------------------| 
 
STRUM: 
E|------2--------| 
B|---------------| 
G|---------------| 
D|---------------| 
A|------1--------| 
E|------2--------|
Learn how to play "007 Theme" with online video lessons


All Contents from Mega Chords.Com

Privacy Policy