Login:  Pass:   
Sign Up Forgot Pass To Confirm
  A B C D E F G H I J K L M N O P Q R S T U V W X Y Z 0-9  
Search: 
Submit Musics Requested Songs Guitar Licks Scales
 

Emily Chords

John Frusciante

  
Home > J > John Frusciante > Emily
Rate This Music:
0
Corrections:
Added by Tiago Medeiros

Learn how to play "Emily" with online video lessons!
STOP
Intro:
E | -------10----------10----------10----------10------ | 
B | ---10----10----10----10----10----10----10----10?--- | 
G | 12----------12----------12----------12------------- | 
D | --------------------------------------------------- | 
A | --------------------------------------------------- | 
E | --------------------------------------------------- | 

E | -------8-----------8-----------8-----------8------- | 
B | ---10----10----10----10----10----10----10----10?--- | 
G | 12----------12----------12----------12------------- | 
D | --------------------------------------------------- | 
A | --------------------------------------------------- | 
E | --------------------------------------------------- | 

   D     C   C/B  Am     G    F
E | -x-----0----0---0------3----x-----0-----x- | 
B | -3-----1----1---1------0----1-----1-----3- | 
G | -2-----0----0---2------0----2-----0-----2- | 
D | -4-----2----x---2------0----3-----2-----4- | 
A | -5-----3----2---0------2----3-----3-----5- | 
E | -x-----x----x---x------3----1-----x-----x- | 

   G     C   C/B  Am     G    F
E | -3-----0----0---0------3----x-----0-----x- | 
B | -0-----1----1---1------0----1-----1-----3- | 
G | -0-----0----0---2------0----2-----0-----2- | 
D | -0-----2----x---2------0----3-----2-----4- | 
A | -2-----3----2---0------2----3-----3-----5- | 
E | -3-----x----x---x------3----1-----x-----x- | 


D                   C         C C/B Am G
What a dream I had, pressed in organdy
G                    F
Clothed in crinoline of smokey burgandy
C              D
Softer than the rain

G                           C           C C/B Am G
I wandered empty streets, down past the shop display
G                        F
I heard cathedral bells, tripping down the alley-way
C           D
As I walked on

G
And when you ran to me, your cheeks flushed with the night
G                           F
We walked on frosted fields of juniper and lamplight
C              D
I held your hand

G                C            C C/B Am G
And when I awoke and felt your warm and near
G                        F
I kissed your honey hair, with my grateful tears
C         D
Oh I love you girl

F        G            D
Ohhhhh, I  looooove youuuuuuuuuu 
Learn how to play "Emily" with online video lessons



All Contents from Mega Chords.Com


Privacy Policy