Login:  Pass:   
Sign Up Forgot Pass To Confirm
  A B C D E F G H I J K L M N O P Q R S T U V W X Y Z 0-9  
Search: 
Submit Musics Requested Songs Guitar Licks Scales
STOP
 

Look On Solo Tab

John Frusciante

  
Home > J > John Frusciante > Look On Solo
Rate This Music:
0
Corrections:
Added by Fabio


Solo:
(2:42)
E|---------------------------------------------------------------------------|
B|------12-14-12-14~----14-12---------------------------------12-12----------|
G|-S13----------------------------13-11-(b9)11-11-(b9)----11/13------------------|
D|----------------------------------------------------11---------------------|
A|---------------------------------------------------------------------------|
E|---------------------------------------------------------------------------|

E|---------------------------------------------------------------------------|
B|-----12-12-----12-12--12-12-------14B-14B-14B-14BR-------------------------|
G|-13---------13-----------------13------------------13-13--11---------------|
D|---------------------------------------------------------------------------|
A|---------------------------------------------------------------------------|
E|---------------------------------------------------------------------------|

E|---------------------------------------------------------------------------|
B|-----12-14-12-14-12--------------------------12-----12-12------------------|
G|-13--------------------13S11-(b9)11-(b9)11S13-------13---------13S11-(b9)--------|
D|---------------------------------------------------------------------------|
A|---------------------------------------------------------------------------|
E|---------------------------------------------------------------------------|

E|---------------------------------------------------------------------------|
B|---------------------------------------------------------------------------|
G|-11-(b9)-----9~--(b9)8------------(b9)8------------------------------------------|
D|-------11-------------11-(b9)11------11-(b9)9H11-(b9)----------------------------|
A|-----------------------------------------------------11-(b9)7-7H(b9)-----------|
E|-------------------------------------------------------------------7H(b9)----|

E|---------------------------------------------------------------------------|
B|---------------------------------------------------------------------------|
G|---------------------------------------------------------------------------|
D|----------(b9)(b9)----(b9)(b9)-11-(b9)-----------------------------------------------|
A|-7-9S11------11-------------11-9S7----6H7P6---4--0H2P0---------------------|
E|----------------------------------------(b9)---------7-------------0H2P0-----|

E|---------------------------------------------------------------------------|
B|---------------------------------------------------------------------------|
G|---------------------------------------------------------------------------|
D|-------------------------------------------------------------(b9)11-11-11----|
A|--------------------------------2--2H4S7-6H7P6-S(b9)S11----------------------|
E|-0H2P0-0H2P0-2H4P2--2H4---4------------------------------------------------|

E|---------------------------------------------------------------------------|
B|----------------------------------------12----12-14B-14B-14B-14------------|
G|-------11B-11B-11B-11R---------13----13------------------------------------|
D|-11~-----------------------11-11-------------------------------------------|
A|---------------------------------------------------------------------------|
E|---------------------------------------------------------------------------|

E|-14B-12-14B-14B--14-12-14-12-14-14-12-14-14-12-14-14-11-12-----------------|
B|---------------------------------------------------------------------------|
G|---------------------------------------------------------------------------|
D|---------------------------------------------------------------------------|
A|---------------------------------------------------------------------------|
E|---------------------------------------------------------------------------|

E|-14-14B-14B-14-12-11H12P11-12-11--------------19B-19B-16-16----------------|
B|----------------------------------------14-14~-----------------------------|
G|---------------------------------------------------------------------------|
D|---------------------------------------------------------------------------|
A|---------------------------------------------------------------------------|
E|---------------------------------------------------------------------------|

E|-----16-19BRBR-16--------------------------1(b9)-----------------------------|
B|-1(b9)------------------1(b9)17-1(b9)17-1(b9)-19B----19R-17-1(b9)17------------------|
G|---------------------------------------------------------------------------|
D|---------------------------------------------------------------------------|
A|---------------------------------------------------------------------------|
E|---------------------------------------------------------------------------|

E|-------1(b9)---------1(b9)-------1(b9)--------1(b9)--------------------------------|
B|-19B-----19R---------19RB-----19RB-----19RB--1(b9)17-16-17-17----------------|
G|---------------------------------------------------------------------------|
D|---------------------------------------------------------------------------|
A|---------------------------------------------------------------------------|
E|---------------------------------------------------------------------------|

E|-----------------14B-12----------------------------------------------------|
B|-17P16-----14----------14-14-14P12------14B-14B-14B-14B-14-14--------------|
G|---------16------------------------------13--------------------------------|
D|---------------------------------------------------------------------------|
A|---------------------------------------------------------------------------|
E|---------------------------------------------------------------------------|

E|---------------------------------------------------------------------------|
B|-12-----------------------------12-12-12P(b9)(b9)(b9)-10-(b9)10-(b9)-----------------|
G|-----13-11-(b9)-(b9)11-(b9)11S13---------------------------------(b9)-11B----------|
D|---------------------------------------------------------------------------|
A|---------------------------------------------------------------------------|
E|---------------------------------------------------------------------------|

E|---------------------------------------------------------------------------|
B|---------------------------------------------------------------------------|
G|-8-(b9)-11B-11B-11B--(b9)8H(b9)--------------------------------------------------|
D|--------------------------------11-11-----------------------(b9)11-----------|
A|----------------------------------------9S7-(b9)-----7-9S11------------------|
E|------------------------------------------------7H(b9)-----------------------|

E|---------------------------------------14B---------------------------------|
B|---------------------------------12B---------------------------------------|
G|---------------------------11B---------------------------------------------|
D|-11B-9H11-11-11--11B-----------------------11-11-11-11-11-11-11-etc--------|
A|---------------------------------------------------------------------------|
E|---------------------------------------------------------------------------|

(5:08)

E|-21~-----------------------------------------------------------------------|
B|---------------------------------------------------------------------------|
G|------------------16H18~---------16H18-18B-----------16H18~----------------|
D|---------------------------------------------------------------------------|
A|---------------------------------------------------------------------------|
E|---------------------------------------------------------------------------|

E|---------------------------------------------------------------------------|
B|---------------------------------------------------------------------------|
G|--16H18--------18B------feedback etc---------------------------------------|
D|---------------------------------------------------------------------------|
A|---------------------------------------------------------------------------|
E|---------------------------------------------------------------------------|
Learn how to play "Look On Solo" with online video lessons


All Contents from Mega Chords.Com

Privacy Policy