Login:  Pass:   
Sign Up Forgot Pass To Confirm
  A B C D E F G H I J K L M N O P Q R S T U V W X Y Z 0-9  
Search: 
Submit Musics Requested Songs Guitar Licks Scales
STOP
 

Mascara Tab

John Frusciante

  
Home > J > John Frusciante > Mascara
Rate This Music:
0
Corrections:
Added by Anonymous User


F#m                       A
e|-------------------------|-------------------------|
B|-2---2-2-2---2---2-2-2-x-|-2---2-2-2---2---2-2-2-x-|
G|-3---3-3-3---3---3-3-3-x-|-2---2-2-2---2---2-2-2-x-|
D|-4---4-4-4---4---4-4-4-x-|-2---2-2-2---2---2-2-2-x-|
A|-4---4-4-4---4---4-4-4-x-|-0---0-0-0---0---0-0-0-x-|
E|-------------------------|-------------------------|
B                         Bm
e|-------------------------|-------------------------|
B|-4-----4-4-4-4-----x-4-x-|-3-----3-3-3-3-3-3-3-3-x-|
G|-4-----4-4-4-4-----x-4-x-|-4-----4-4-4-4-4-4-4-4-x-|
D|-4-----4-4-4-4-----x-4-x-|-4-----4-4-4-4-4-4-4-4-x-|
A|-2-----2-2-2-2-----x-2-x-|-2-----2-2-2-2-2-2-2-2-x-|
E|-------------------------|-------------------------|
A                         E
e|-------------------------|-------------------------|
B|-2-----2-2-x-2-----2-2-x-|-------------------------|
G|-2-----2-2-x-2-----2-2-x-|-1-----1-1-x-1-----1-1-x-|
D|-2-----2-2-x-2-----2-2-x-|-2-----2-2-x-2-----2-2-x-|
A|-0-----0-0-x-0-----0-0-x-|-2-----2-2-x-2-----2-2-x-|
E|-------------------------|-0-----0-0-x-0-----0-0-x-|
B                         F#
e|-------------------------|-------------------------|
B|-4-----4-4-x-4-----4-4-x-|-2-----2-2-x-2-x-2-x-2-x-|
G|-4-----4-4-x-4-----4-4-x-|-3-----3-3-x-3-x-3-x-3-x-|
D|-4-----4-4-x-4-----4-4-x-|-4-----4-4-x-4-x-4-x-4-x-|
A|-2-----2-2-x-2-----2-2-x-|-4-----4-4-x-4-x-4-x-4-x-|
E|-------------------------|-2-----2-2-x-2-x-2-x-2-x-|
G                         B5
e|-3-----3-3-x-3-----3-3-x-|-------------------------|
B|-3-----3-3-x-3-----3-3-x-|-4-----4-4-x-4-----4-4-x-|
G|-0-----0-0-x-0-----0-0-x-|-4-----4-4-x-4-----4-4-x-|
D|-0-----0-0-x-0-----0-0-x-|-4-----4-4-x-4-----4-4-x-|
A|-2-----2-2-x-2-----2-2-x-|-2-----2-2-x-2-----2-2-x-|
E|-3-----3-3-x-3-----3-3-x-|-------------------------|
C5                       (D#)5
e|-------------------------|-------------------------|
B|-------------------------|-------------------------|
G|-5-----5-5-x-5-----5-5-x-|-8-----8-8-8-%-8---8-8-8-|
D|-5-----5-5-x-5-----5-5-x-|-8-----8-8-8---8---8-8-8-|
A|-3-----3-3-x-3-----3-3-x-|-6-----6-6-6---6---6-6-6-|
E|-------------------------|-------------------------|
(D#)5               F5     G5
e|-------------------------[-------------------------|
B|-------------------------[-------------------------|
G|-8-8-8-8-8-8-8-x-x-10x-x-[.12--1212121212--12121212|
D|-8-8-8-8-8-8-8-x-x-10x-x-[.12--1212121212--12121212|
A|-6-6-6-6-6-6-6-x-x-8-x-x-[-10--1010101010--10101010|
E|-------------------------[-------------------------|
                        3xG5          (D#)5  F5     (D#)5
e|-------------------------]-------------------------|
B|-------------------------]-------------------------|
G|-12--121212x-8---x-10--x.]-8---8-8-8-8-8---8-8-8-8-|
D|-12--121212x-8---x-10--x.]-8---8-8-8-8-8---8-8-8-8-|
A|-10--101010x-6---x-8---x-]-6---6-6-6-6-6---6-6-6-6-|
E|-------------------------]-------------------------|
(D#)5               F5     G5
e|-------------------------[-------------------------|
B|-------------------------[-------------------------|
G|-8-8-8-8-8-8-8-x-x-8-x-x-[.12--1212121212--12121212|
D|-8-8-8-8-8-8-8-x-x-8-x-x-[.12--1212121212--12121212|
A|-6-6-6-6-6-6-6-x-x-8-x-x-[-10--1010101010--10101010|
E|-------------------------[-------------------------|
                        3x


G5          (D#)5  F5     (D#)5
e|-------------------------]-------------------------|
B|-------------------------]-------------------------|
G|-12--121212x-8---x-10--x.]-8---8-8-8-8-8---8-8-8-8-|
D|-12--121212x-8---x-10--x.]-8---8-8-8-8-8---8-8-8-8-|
A|-10--101010x-6---x-8---x-]-6---6-6-6-6-6---6-6-6-6-|
E|-------------------------]-------------------------|
(D#)5
e|-------------------------|
B|-------------------------|
G|-8---8-8-8---8---8-8-8-8-|
D|-8---8-8-8---8---8-8-8-8-|
A|-6---6-6-6---6---6-6-6-6-|
E|-------------------------|
                                   Rhythm 1......
e|-----4-------4-------4-------4---|-----4-------4-------4-------4---|
B|-----4-------4-------4-------4---|-----4-------4-------4-------4---|
G|---------------------------------|---------------------------------|
D|-1---------------1---------------|-1---------------1---------------|
A|-1-------1-------1-------1-------|-1-------1-------1-------1-------|
E|---------1---------------1-------|---------1---------------1-------|
e|-----4-------4-------------------|-----4-------4-------4-------3~--|
B|-----4-------4-------5-------4---|-----4-------4-------4-------2~--|
G|---------------------4-------4---|---------------------------------|
D|-1---------------2-------4-------|-1---------------1---------------|
A|-1-------1-------2-------2-------|-1-------1-------1-------1-------|
E|---------1-----------------------|---------1---------------1-------|
                                  end of Rhythm 1.................
e|-----4-------4-------------------|-----4-------4-------4-------4---|
B|-----4-------4-------5-------4---|-----4-------4-------4-------4---|
G|---------------------4-------4---|---------------------------------|
D|-1---------------2-------4-------|-1---------------1---------------|
A|-1-------1-------2-------2-------|-1-------1-------1-------1-------|
E|---------1-----------------------|---------1---------------1-------|
Rhythm 2.....
E                                 B
e|-0---0-0-0-0-0---0-0-0-0-0---0-0-|---------------------------------|
B|-0---0-0-0-0-0---0-0-0-0-0---0-0-|-4---4-4-4-4-4---4-4-4-4-4---4-4-|
G|-1---1-1-1-1-1---1-1-1-1-1---1-1-|-4---4-4-4-4-4---4-4-4-4-4---4-4-|
D|-2---2-2-2-2-2---2-2-2-2-2---2-2-|-4---4-4-4-4-4---4-4-4-4-4---4-4-|
A|-2---2-2-2-2-2---2-2-2-2-2---2-2-|-2---2-2-2-2-2---2-2-2-2-2---2-2-|
E|-0---0-0-0-0-0---0-0-0-0-0---0-0-|---------------------------------|
E                                 B            A               G
e|-0---0-0-0-0-0---0-0-0-0-0---0-0-|-----------------------------3---|
B|-0---0-0-0-0-0---0-0-0-0-0---0-0-|-4---x-4-4-x-2---2---x-2-2-x-3---|
G|-1---1-1-1-1-1---1-1-1-1-1---1-1-|-4---x-4-4-x-2---2---x-2-2-x-0---|
D|-2---2-2-2-2-2---2-2-2-2-2---2-2-|-4---x-4-4-x-2---2---x-2-2-x-0---|
A|-2---2-2-2-2-2---2-2-2-2-2---2-2-|-2---x-2-2-x-0---0---x-0-0-x-2---|
E|-0---0-0-0-0-0---0-0-0-0-0---0-0-|-----------------------------3---|
                         End of Rhythm 2............
                                   F#
e|-3-3-3-3-3---3-3-3-3-3---3---x-x-|---------------------------------|
B|-3-3-3-3-3---3-3-3-3-3---3---x-x-|---------------------------------|
G|-0-0-0-0-0---0-0-0-0-0---0---x-x-|-3---x-x-3---3-3-3-3-3-3-3-3-3-3-|
D|G-0-0-0-0-0---0-0-0-0-0---0---x-x-|-4---x-x-4---4-4-4-4-4-4-4-4-4-4-|
A|-2-2-2-2-2---2-2-2-2-2---2---x-x-|-4---x-x-4---4-4-4-4-4-4-4-4-4-4-|
A|-3-3-3-3-3---3-3-3-3-3---3---x-x-|-2---x-x-2---2-2-2-2-2-2-2-2-2-2-|
+ Rhythm 1
+ Rhythm 2
Rhythm 3 ........
B5           D5                   A5       G5(II)              (3x)
e[---------------------------------|---------------------------------]
B[---------------------------------|---------------------------------]
G[.4-----4-4-x-7---7-7-7-7-7-7-7-x-|--------------------------------.]
D[.4-----4-4-x-7---7-7-7-7-7-7-7-x-|-7----x-7-x-5---5-5-5-5-5-5-5-x-]
A[-2------2-2-x-5----5-5--5-5-5-5-5--x-|-7-----x-7-x-5----5-5-5-5--5-5-5--x-]
E[-------------------------------------|-5-----x-5-x-3----3-3-3-3--3-3-3--x-]
F#                                                    End of Rhythm 3
e|---------------------------------|---------------------------------|
B|---------------------------------|---------------------------------|
G|---------------------------------|-11111111111111111111111111111111|
D|-4-----4-4-4---4-4-4-4-4-4-4-4-4-|-11111111111111111111111111111111|
A|-4-----4-4-4---4-4-4-4-4-4-4-4-4-|-9-9-9-9-9-9-9-9-9-9-9-9-9-9-9-9-|
E|-2-----2-2-2---2-2-2-2-2-2-2-2-2-|---------------------------------|
+ Rhythm 3
e|---------------------------------|---------------------------------|
B|---------------------------------|---------------------------------|
G|---------------------------------|---------------------------------|
D|---------------------2-------4---|---------------------2-----------|
A|-2---2---5---2-----------5-------|-----2---2---2---5-------5---2---|
E|---------------------------------|---------------------------------|
e|---------------------------------|---------------------------------|
B|---------------------------------|---------------------------------|
G|---------------------------------|---------------------------------|
D|-4-------------------------------|---------------------------------|
A|-----4b--4---------------5-------|---------------------------------|
E|-------------5-------5-------3---|-----------------------3-3--5----|
Outro:
Em
e|-----------------------------------------------------------------|
B|-13--12------12--------------------------------------------------|
G|---------12--------------12----------------------12--------------|
D|-----------------------------14--12--14--------------14----------|
A|-----------------------------------------------------------------|
E|-----------------------------------------------------------------|
Am
e|-----------------------------------------------------------------|
B|-15--13--12--13----------12------------------12------------------|
G|-----------------------------12------12--------------12----------|
D|---------------------------------14------------------------------|
A|-----------------------------------------------------------------|
E|-----------------------------------------------------------------|
G
e|-----------------------------------------------------------------|
B|-13--12------12--------------------------------------------------|
G|---------12--------------12------------------12b-----------------|
D|-----------------------------14--12--14--------------14----------|
A|-----------------------------------------------------------------|
E|-----------------------------------------------------------------|
Am                              C
e|-----------------------------------------------------------------|
B|-15--13--12--13----------12------------------12------------------|
G|-----------------------------12------12--------------12----------|
D|---------------------------------14------------------------------|
A|-----------------------------------------------------------------|
E|-----------------------------------------------------------------|
Learn how to play "Mascara" with online video lessons


All Contents from Mega Chords.Com

Privacy Policy