Login:  Pass:   
Sign Up Forgot Pass To Confirm
  A B C D E F G H I J K L M N O P Q R S T U V W X Y Z 0-9  
Search: 
Submit Musics Requested Songs Guitar Licks Scales
STOP
 

Ghost Riders In The Sky (solo) Tab

Johnny Cash

  
Home > J > Johnny Cash > Ghost Riders In The Sky (solo)
Rate This Music:
0
Corrections:
Added by Catia Medeiros


GHOST RIDERS IN THE SKY    (solo) 
 
G---------------------------|-----------------------------| 
D---------------------------|-----------------0-2-2-2p0--2| 
A----0-0-0-2h3-33-0---------|----0-0-0-2h3-33-----------3-| 
E--0----------------3-33-0-3|--0--------------------------| 
 
G-----22-22p0---------------|-----------------------------| 
D--22---------22-22p0-------|-----------------------------| 
A---------------------33-0-3|-----------333----3-3-0-0---3| 
E---------------------------|--0-1-11-0----------------3--|
Learn how to play "Ghost Riders In The Sky (solo)" with online video lessons


All Contents from Mega Chords.Com

Privacy Policy