Login:  Pass:   
Sign Up Forgot Pass To Confirm
  A B C D E F G H I J K L M N O P Q R S T U V W X Y Z 0-9  
Search: 
Submit Musics Requested Songs Guitar Licks Scales
 

Carry On Wayward Son Chords

Kansas

  
Home > K > Kansas > Carry On Wayward Son
Rate This Music:
0
Corrections: 1
Added by Anonymous User

Learn how to play "Carry On Wayward Son" with online video lessons!
STOP
Tuning: Standard (E A D G B e)
Tom: Am
(N.C.)
Carry on my wayward son
There'll be peace when you are done
Lay your weary head to rest
Don't you cry no more




E |  | -----------------------------------------------------------------------------------------------------
B |  | -----------------------------------------------------------------------------------------------------
G |  | -----------------------------------------------------------------------------------------------------
D |  | ------------------------------------------5----------------------------------------------------------
A |  | -----------3-----------------5~------5g7-----7-5-3----5----------5---------------------3-------------
E |  | --5--3--5---------5--3----5------------------------------3~---------2~--------5--3--5---------5--3~--


-----------------------------------------------------------------------------
----------------------------------------------------------------12------12---
----------------------------------------------------------------12------12---
------------------5---------------------------------------------12\-----12\--
-----5~------5g7-----7-5-3----5----------5-----------------------------------
--5------------------------------3~---------2--------0-----0-----------------



------------------------------------------------------------------------------------
----------------------------------------14S-----12----------------------------------
----------------------------------------14S-----12----------------------------------
--------------------5-------------------14S-----12-----------9------------5---------
-----------------5-----5h7--------------14------12-----------7---------5-----5h--7--
---------0--5h7---------------0-----0------------------------0--5h--7---------------



----------------------------------------------------------------------------
------------12------12------------------------------------------14S-----12--
------------12------12------------------------------------------14S-----12--
------------12\-----12\---------------------5-------------------14S-----12--
-----------------------------------------5-----5h7--------------14------12--
--0-----0------------------------0--5h7---------------0-----0---------------




-----------------------------------------------------------------------------
-----------------------------------------------------------------------------
------------------------------5--------7b5~-------------------------------2--
---------9----------5---------5--------------------7-5-----------------------
---------7-------5-----5h7-----------------------------7-6-5--2S-5~----------
---------0--5h7--------------------------------------------------------------



------------------------------------------------------------------------17-------17-------20p-17----
---------------------------------------------------------------------17----20-17----20-17--------17-
--5p-2p-0-5p-2p-0-5p-2p-0-5p-2p-0-5p-2p-0-5S--17~--(17)~--------19b---------------------------------
----------------------------------------------------------------------------------------------------
----------------------------------------------------------------------------------------------------
----------------------------------------------------------------------------------------------------



--17--------------------------------5-------5---------------------------------------22b--22b~--
-----20-17------------------------5---8---5-5-8-5----------------------------------------------
-----------20-19-17-19-17~-----7b-----------------8-7-5-7-5~-----------------------------------
-----------------------------------------------------------------------------------------------
-----------------------------------------------------------------------------------------------
-----------------------------------------------------------------------------------------------




--------------------------------------------22b--22b~-----------------------------------
----------------------------------------------------------------------------------------
----------------------------------------------------------------------------------------
---------------------5-------------------------------------------9------------5---------
------------------5-----5h7--------------------------------------7---------5-----5h--7--
----------0--5h7-------------------------------------------------0--5h--7---------------




--5---------5----7----5----7------7--8~-------- |  | 
--5----5----5----8----5----8------8-10~-------- |  | 
--5----5----5----7----5----7------7--9~-------- |  | 
-------7--------------------------------------- |  | 
----------------------------------------------- |  | 
----------------------------------------------- |  | 




Am       G              F         G
 Once I rose above the noise and confusion
Am        G             F           G
 Just to get a glimpse beyond this illusion
Dm      C            Bb        Bb C  
 I was soaring ever higher
Dm      C        G
 But I flew too high
Am         G                  F           G
 Though my eyes could see I still was a blind man
Am          G                   F          G
 Though my mind could think I still was a mad man
Dm           C                Bb           Bb C
 I hear the voices when I'm dreaming
Dm      C         G
 I can hear them say


Am     C      G       F
 Carry on my wayward son
Am            C                  G
 There'll be peace when you are done
Am         C     G       F
 Lay your weary head to rest

 Don't you cry no more


E |  | ------------------------------------------------------------------------------------------------------
B |  | ------------------------------------------------------------------------------------------------------
G |  | ------------------------------------------------------------------------------------------------------
D |  | -------------------------------------------5----------------------------------------------------------
A |  | -----------3--L---------------5~------5g7-----7-5-3----5----------5---------------------3-------------
E |  | --5--3--5----------5--3----5------------------------------3~---------2~--------5--3--5---------5--3~--


    
--------------------------------------------------
--------------------------------------------------
--------------------------------------------------
------------------5-------------------------------
-----5~------5g7-----7-5-3----5----------5--------
--5------------------------------3~---------2-----


Am      G           F          G
 Masquerading as a man with a reason
Am      G            F           G
 My charade is the event of the season
Dm          C                Bb           Bb C
 And if I claim to be a wise man
Dm          C                  G
 It surely means that I don't know
Am      G             F      G
 On a stormy sea of moving emotion
Am        G                F           G
 Tossed about I'm like a ship on the ocean
Dm      C                 Bb         Bb C
 I set sail for winds of fortune
Dm      C               G
 But I hear the voices say


Am     C      G       F
 Carry on my wayward son
Am            C                  G
 There'll be peace when you are done
Am         C     G       F
 Lay your weary head to rest

 Don't you cry no more


E |  | ------------------------------------------------------------------------------------------
B |  | ------------------------------------------------------------------------------------------
G |  | -------------------------------------------------5~--L------------------------------------
D |  | -----7p-5----------------------------------7-----5~--L---------7p-5-----------------------
A |  | ----------7p-5---------5--x-------x-----x--5--x--3~--L--------------7p-5---------5--x-----
E |  | --5------------8p-5-8--------3-------5----------------------5------------8p-5-8--------3--


------------------------------------------------------------------------------------------------------------------
------------------------------------------------------------------------------------------------------------------
-----------7~--L---------------------------------------------------------5~--L------------------------------------
-----------7~--L-------------7p-5----------------------------------7-----5~--L---------7p-5-----------------------
--x-----x--5~--L------------------7p-5---------5--x-------x-----x--5--x--3~--L--------------7p-5---------5--x-----
-----5--------------------5------------8p-5-8--------3-------5----------------------5------------8p-5-8--------3--


------------------------------------------------------------------------------------------------------
------------------------------------------------------------------------------------------------------
-----------7--L---------------------------------------------------------------------------------------
-----------7--L--------------------------------------------------------5~-----------------------------
--x-----x--5--L-------------7-----5-----4-------------------------5--------------7-----5-----4--------
-----5-------------------0--------------------7-------5-----3-----------------0--------------------7--



-------------------------------------------------------------------------------------------------------------------
-------------------------------------------------------------------------------------------------------------------
--------------------------------------------------------------------------5~--L------------------------------------
------------------------------7p-5----------------------------------7-----5~--L---------7p-5-----------------------
--5------------------3b------------7p-5---------5--x-------x-----x--5--x--3~--L--------------7p-5---------5--x-----
-----2----3--L--4----------5------------8p-5-8--------3-------5----------------------5------------8p-5-8--------3--



------------------------------------------------------------------------------------------------------------------
------------------------------------------------------------------------------------------------------------------
-----------7~--L---------------------------------------------------------5~--L------------------------------------
-----------7~--L-------------7p-5----------------------------------7-----5~--L---------7p-5-----------------------
--x-----x--5~--L------------------7p-5---------5--x-------x-----x--5--x--3~--L--------------7p-5---------5--x-----
-----5--------------------5------------8p-5-8--------3-------5----------------------5------------8p-5-8--------3--




--------------------------15b-----15-----14-----12-----------------------------------------------------
---------------------------------------------------------15--12h-15p-12---------------------------12---
-----------7~--L--------------------------------------------------------14--12--14--12h-14p-12----12---
-----------7~--L---------------------------------------------------------0---------------------14-12---
--x-----x--5~--L---------------------------------------------------------------------------------------
-----5-------------------------------------------------------------------------------------------------




-----------------------------------------------------------------------------------------------------------
-----------------------------------------------------------------------------------------------------------
---------12h-13p-12-----12--14------12h-13p-12-----------------------------12--L---------------------------
-----14-------------14----------14---------------14--13--12----------------12--L---------------------------
-------------------------------------------------------------14--13--12--x------------------3~--L----------
-----------------------------------------------------------------------------------5--3--5-----------5--3--



----------------------------------------------------------------------------------------------------------
----------------------------------------------------------------------------------------------------------
----------------------------------------------------------------------------------------------------------
------------------5-----------------------------------------------------------------------------5---------
-----5~------5S-7----7-5-3----5----------5---------------------3~--L---------------5~------5g7-----7-5-3--
--5------------------------------3~---------2~--------5--3--5-----------5--3----5-------------------------



------------------------
------------------------
------------------------
------------------------
--5----------5----------
-----3~---------2~------

Am 
  Carry on
            G      F
You will always remember
Am 
  Carry on
        G             F
Nothing equals the splendor
Dm         C                Bb
 Now your life's no longer empty
Dm       C                G
 Surely Heaven waits for you


Am      C     G       F
 Carry on my wayward son
Am            C          G
 There'll be peace when you are done
Am         C     G       F
 Lay your weary head to rest
                                             Em7
Don't you cry {vocal echo: Don't you cry} no more  



E |  | -----------------------------------------------------------------------------------------------------------------
B |  | -----------------------------------------------------------------------------------------------------------------
G |  | -----------------------------9------9------L----L------------------------------------------------------9S-----9--
D |  | -----------------------------9\-----9\-----L----L---------------5--------------------------------------9S-----9--
A |  | -----------------------------7------7------------------------5-----5h--7-------------------------------7------7--
E |  | --0-----0-----------------0------------------------0--5h--7-----------------0-----0-----------------0---------0--


-------------------------------------------------------------------------------------------------------------
---L----L---------------------------------------------------------------------L----L-------------------------
---L----L------------------------------------------------------(9)-----(9)----L----L-------------------------
---L----L--9------------5---------------------------------------9\------9\----L----L---------------5---------
-----------7---------5-----5h--7--------------------------------7-------7-----------------------5-----5h--7--
-----------0--5h--7-----------------0-----0-----------------0-----------0-------------0--5h--7---------------


---------------------------------------------------------------------------------------------------------
------------------------------------------L----L---------------------------17b~------------17--(17)--14--
-----------------------------9S-----9-----L----L---------------------------------------------------------
-----------------------------9S-----9-----L----L--9------------5-----------------------------------------
-----------------------------7------7-------------7---------5-----5h--7----------------------------------
--0-----0-----------------------------------------0--5h--7-----------------------------------------------


---------------------------------------------------------------------17b--17b------L----L----19br----L--L--
---------------------------17--14--17----17b~--L----L-17br-(17)--14----------------------------------------
--16b-16-14-16-14~----L------------------------------------------------------------------------------------
-----------------------------------------------------------------------------------------------------------
-----------------------------------------------------------------------------------------------------------
-----------------------------------------------------------------------------------------------------------


--14h-17-14~--L----14----------14---------------------------------------------------------------------------
-----------------------17--14------17--------------------------------------------------------5-----5-----5--
---------------------------------------14~----L----------------2--4--4b------4~----4p--2--6--6--6--6--6--6--
-------------------------------------------------16~--L--L--4-----------------------------------------------
------------------------------------------------------------------------------------------------------------
------------------------------------------------------------------------------------------------------------



--------------------------------------------------------------------------------------
-----5--------------------------------------------------------------------------------
--6--6--6S-4-2-------------------------------9S-----9---------------------------------
---------------------------------------------9S-----9----L----L--------------5-----5--
---------------------------------------------7------7----L----L-----------5-----5-----
------------------0-----0--------------------------------L----L--0--5--7--------------




----------------------------------------------------------------------------------------------------
----------------------------------------------------------------------------------------------------
-----------------------------9S-----9--------------------------------------4br--------L----L--2--4--
-----------------------------9S-----9----L----L--9------------5-------------------------------------
-----------------------------7------7----L----L--7---------5-----5h--10-----------------------------
--0-----0--------------------------------L----L--0--5h--7-------------------------------------------





------------------------------------------------------------------------------------------------------------
--------------------2h-------5p-2h-5p-2h-5h---2h-5p-2h-5p-2h-5p-2h-5p-2h-5p-2h-5p-2h-5p-2h-5p-2h-5----------
--4b~----L----L------------------------------------------------------------------------------------4b-L--4b-
------------------------------------------------------------------------------------------------------------
------------------------------------------------------------------------------------------------------------
------------------------------------------------------------------------------------------------------------





--------------------------------------------------------------------------------------------------------
--------------------------------------------------------------------------------2h-------5p-2h-5p-2h-5h-
--2--4--2-----2--2br--L--2S-x------4br--------L----L--2--4----4b~----L----L-----------------------------
-----------4--------------------------------------------------------------------------------------------
--------------------------------------------------------------------------------------------------------
--------------------------------------------------------------------------------------------------------




-------------------------------------------------------------------------------------------------
--2h-5p-2h-5p-2h-5p-2h-5p-2h-5p-2h-5p-2h-5p-2h-5p-2h-5-------------------------------------------
-------------------------------------------------------4b-L--4b---2--4--2-----2--2br--L--2S-x----
---------------------------------------------------------------------------4---------------------
-------------------------------------------------------------------------------------------------
-------------------------------------------------------------------------------------------------




------------------------------------------------------------------17b--------17b--L--14----------
-----17----L----L----17------------------------------------------------------------------17--14--
-----16br--L----L------------16--16p--14--16~--L----L--16--14b-----------------------------------
-------------------------------------------------------------------------------------------------
-------------------------------------------------------------------------------------------------
-------------------------------------------------------------------------------------------------




--14------------------------------5---------5----8----5----7------7S--8~------------L-L-- |  | 
------17--17----------------------5----5----5----7----5----8------8S-10~------------L-L-- |  | 
--------------14~----L--L---------5----5----5----5----5----7------7S--9~------------L-L-- |  | 
---------------------------------------7------------------------------------------------- |  | 
----------------------------------------------------------------------------------------- |  | 
----------------------------------------------------------------------------------------- |  | 




 
Learn how to play "Carry On Wayward Son" with online video lessons



All Contents © from Mega Chords.Com


Privacy Policy