Login:  Pass:   
Sign Up Forgot Pass To Confirm
  A B C D E F G H I J K L M N O P Q R S T U V W X Y Z 0-9  
Search: 
Submit Musics Requested Songs Guitar Licks Scales
STOP
 

So What Tab

Metallica

  
Home > M > Metallica > So What
Rate This Music:
0
Corrections:
Added by Anonymous User


Bass Riff1
|------------------------------------------------------------|
|------------------------------------------------------------|
|------------------------------------------------------------|
|--3h5-5--5-5-5-5-3h5-5--5-5-5-5-3h5-5--3h5-5-3h5-5--5-5-5-5-|

Bass Riff2
|------------------------------------|
|------------------------------------|
|-3h5-5--5-5-5-5-5-5-5-5-5-5-5-5-5-5-|
|------------------------------------|

Bass Riff3
|-------------------------------|
|-------------------------------|
|--------------1--1-1-1-1-1-----|
|-1--1-1-1-1-1------------------|

Bass Riff4
|--------------------------------|
|--------------------------------|
|--------------------------------|
|--3h5-5--5-5-5-5-3h5-5--5-5-5-5-|
Learn how to play "So What" with online video lessons


All Contents from Mega Chords.Com

Privacy Policy