Login:  Pass:   
Sign Up Forgot Pass To Confirm
  A B C D E F G H I J K L M N O P Q R S T U V W X Y Z 0-9  
Search: 
Submit Musics Requested Songs Guitar Licks Scales
 

Brothers In Arms Chords

Metallica

  
Home > M > Metallica > Brothers In Arms
Rate This Music:
1
Corrections:
Added by Fabio

Learn how to play "Brothers In Arms" with online video lessons!
STOP
Intro 4x: E5  F5
Eb | ----------------------------------- | 
Bb | ---3---3---3---3---3---3----------- | 
Gb | -----2---2---2---2---2---2--------- | 
Db | ----------------------------------- | 
Ab | ----------------------------------- | 
Eb | ----------------------------------- | 

Guitarra 1 - 2x: Am  F5  D9  F5  
                 Am  F5  D9     

E | -------------------- | 
B | --1--0-------------- | 
G | --2--2---2~~-------- | 
D | --2--2-------------- | 
A | --0--0-------------- | 
E | -------------------- | 

Guitarra 2:
E | ---------------------------------------------------------- | 
B | ---------------------------------------------------------- | 
G | ---2--4-2-----4h5p4---------4-5-7-5-4-------7-(b9)7~~------- | 
D | --2------------------5--3-3-----------7------------------- | 
A | ---------------------------------------------------------- | 
E | ---------------------------------------------------------- | 

E | ---------------------------------------------------------- | 
B | ---------------------------------------------------------- | 
G | -7b-5-4----4--------5-4-2~~------------------------------- | 
D | ---------7----5/7----------------------------------------- | 
A | ---------------------------------------------------------- | 
E | ---------------------------------------------------------- | 


Am           F         G
These mist covered montains
                C  F  C
Are a home now for me
      G            Am        Em
But my home is the lowlands
               F   G
And always will be
             Am    Em
Some day you'll return to
                       F  D9  G
Your valleys and your farms
                  C
And you'll no longer burn
         F            G
To be brothers in arms

Solo: Am  F  D9  F  Am  F  D9 

Am                      F     G
Though these fields of destruction
            C F C
Baptism of fire
               Am     Em
I've witnessed your suffring
                      F     G
As the battle raged higher
                Am            Em
And tr ough they did hurt me so bad
                    F Dm G
In the fear and alarm
               C
You did not desert me
    F           G
My brothers in arms

Solo: Am  F  D9  F  Am  F  D9

            C                 Am
There's so many different worlds
    G              F   G
So many different suns
                      Am    G
And we home just one world
        G                 F   G
But we live in different ones

Solo: Am  F  D9  F  Am  F  D9

 Am                   F    G
Now the sun's gone to hell
                       C    F   C
And the moon's riding high
   G                Am   Em
Let me bid you forewell
               F   Dm  G
Every man has to die

                 Am      Em
But it's written in the starlight
                  F    G
And every line on your palm
                  C
We're fools to make war
        F           G
On our brothers in arms

Solo: Am  F  D9  F  Am  F  D9

We're fools to make war 
Learn how to play "Brothers In Arms" with online video lessons



All Contents from Mega Chords.Com


Privacy Policy