Login:  Pass:   
Sign Up Forgot Pass To Confirm
  A B C D E F G H I J K L M N O P Q R S T U V W X Y Z 0-9  
Search: 
Submit Musics Requested Songs Guitar Licks Scales
STOP
 

King Nothing Tab

Metallica

  
Home > M > Metallica > King Nothing
Rate This Music:
0
Corrections:
Added by Anonymous User


                                                8x   last time w/ 
fill 1
E-| ---------------------|-------------------------|------------------
B-|- --------------------|-------------------------|------------------
G-|-- -------------------|-------------------------|------------------D-|--- ------------------|-----------------8-----7-|------------------
A-|-0--1--2--------------|-------------------------|------------------E-|-0--1--2--2--2--5--2--|--2--2--5--2--8-----7----|------------------
                                                                      
         
                                                                      
    2 x  
E-|---------------------|-----------------|-------------------|-----------------|
B-|---------------------|-----------------|-------------------|-----------------|
G-|---------------------|-----------------|-------------------|-----------------|
D-|----------3--2-------|----------3-2----|------------3--2---|-------------8-7-|
A-|-0--1--2--1--0--2----|----------1-0-2--|------------1--0-2-|-----------------|
E-|-0--1--2--------2----|--2-2-5-2-----2--|-2--2--5--2------2-|-2-2-5-2-8-7-----|
                                                                      
         
    refrain                                                           
         
E-|--------------------------|----------------------------------------
B-|--------------------------|----------------------------------------
G-|--------------------------|----------------------------------------
D-|-7-7-7--10/--7--10/-------|-7-7-7--10/--7--10/---------------------
A-|---------------------7-5--|-------------------------7--5-----------
E-|-----------------------5--|-----------------------------5----------

                                                                      
         
    and it all crashes down  and you break your crown... crumbles but.
..       
E-|-------------------------|------------------|-------|--------------
B-|-------------------------|------------------|-------|--------------
G-|-------------------------|------------------|-------|--------------
D-|-2-----------------------|--5---------------|--4----|-3------------
A-|-2-----------------------|--3---------------|--2----|-1-1-1-1-1-1-
E-|-2-----------------------|------------------|-------|--------------
                                                                  
      
   fill 1 played after intro riff is played twice                    
        
E-|-------------------------------------------------------------------
B-|----------------------------------------------10p8h10p8h10p8-------
G-|-12-12--9---12-12--9---12-9h12p9h12-----------------------9--------
D-|-12-12--9---12-12--9-----------------------------------------------
A-|-------------------------------------------------------------------
E-|-------------------------------------------------------------------
                                                                  
        
                                                                      
         
E-|-------------------------------------|-----------------------------
B-|-------------------------------------|-----------------------------
G-|-12-12-9-12-12-9--12--13/\/\/\-12-9--|-----------------------------
D-|-12-12-9-12-12-9--12--13/\/\/\-12-9--|-----------------------------
A-|-------------------------------------|-----------------------------
E-|-------------------------------------|-----------------------------
                                                                      
         
    solo - played w/ intro riff, then refrain, then verse chords      
Learn how to play "King Nothing" with online video lessons


All Contents from Mega Chords.Com

Privacy Policy