Login:  Pass:   
Sign Up Forgot Pass To Confirm
  A B C D E F G H I J K L M N O P Q R S T U V W X Y Z 0-9  
Search: 
Submit Musics Requested Songs Guitar Licks Scales
STOP
 

Country Song Tab

Seether

  
Home > S > Seether > Country Song
Rate This Music:
0
Corrections:
Added by Eduardo


Tabbed: Josethejalapeno

This is what I have after listening to it for a while. The only thing I dont
have is the bridge after the solo. Listen to the song for timing and such.

Enjoy.

Verse:
        
E|--------------------------------------|
B|--------------------------------------|
G|--------------------------------------|
D|--3--3--3--3--3--3--3--3--3--3--3--3--|
A|--3--3--3--3--3--3--3--3--3--3--3--3--|
D|--3--3--3--3--3--3--3--3--3--3--3--3--|

E|----------------------|
B|----------------------|
G|----------------------|
D|-5-5-3-5--3-----------|
A|-5-5-3-5--3-----------|
D|-5-5-3-5--3-----------|

Verse 2:

E|---------------------------------------|
B|---------------------------------------|
G|---------------------------------------|
D|--3--3--3--3--5--5--5--5--3--3--3--3---|
A|--3--3--3--3--5--5--5--5--3--3--3--3---|
D|--3--3--3--3--5--5--5--5--3--3--3--3---|

E|--------------------------|
B|--------------------------|
G|--------------------------|
D|-5-5-3-5----5h6p5p3p0-----|
A|-5-5-3-5------------------|
D|-5-5-3-5------------------|

Chorus:

E|------------------------------------------|
B|------------------------------------------|
G|------------------------------------------|
D|-0--0--0-3-3-3-3--3--5h6p5p0-5-5--5--3-3--|
A|-0--0--0-3-3-3-3--3--5h6p5p0-5-5--5--3-3--|
D|-0--0--0-3-3-3-3--3--5h6p5p0-5-5--5--3-3--|

E|------------------------------------------------|
B|------------------------------------------------|
G|------------------------------------------------|
D|-0--0--0-3-3-3-3--3--5h6p5p0-5-5--3--5h6p5p3p0--|
A|-0--0--0-3-3-3-3--3--5h6p5p0-5-5--3-------------|
D|-0--0--0-3-3-3-3--3--5h6p5p0-5-5--3-------------|
                                    . 

E|-------------------------------------|
B|-------------------------------------|
G|-------------------------------------|
D|-0--0--0-3-3-3-3--3-5-5-5h6p5p0-3-3--|
A|-0--0--0-3-3-3-3--3-5-5-5h6p5p0-3-3--|
D|-0--0--0-3-3-3-3--3-5-5-5h6p5p0-3-3--|

E|------------------------------------------------|
B|------------------------------------------------|
G|------------------------------------------------|
D|-0--0--0-3-3-3-3--3--5h6p5p0-5-5--3--5h6p5p3p0--|
A|-0--0--0-3-3-3-3--3--5h6p5p0-5-5--3-------------|
D|-0--0--0-3-3-3-3--3--5h6p5p0-5-5--3-------------|
                                    .
Solo:

E|---------------------------------------------------|
B|---------------------------------------------------|
G|---------------------------------------------------|
D|------3-5p3h5p3p0------3-5h6p5p3p0-----3-5p3h5p3p0-|
A|--5-5--------------5-5-------------5-5-------------|
D|---------------------------------------------------|

E|-----------------------|
B|-----------------------|
G|-----------------------|
D|-5-5-3-5---------------|
A|-5-5-3-5---------------|
D|-5-5-3-5---------------|

Song Order:
Verse x2
Verse 2
Chorus
Verse
Second half of Verse 2
Chorus
Solo
Bridge
Chorus x2 (Play solo under chorus second time)
Learn how to play "Country Song" with online video lessons


All Contents from Mega Chords.Com

Privacy Policy